  0
SECTION
  2
HEADER
  9
$ACADVER
  1
AC1006
  9
$EXTMIN
 10
-23.036409
 20
-36.473701
  9
$EXTMAX
 10
16.222157
 20
34.922472
  9
$LTSCALE
 40
0.000394
  9
$PDMODE
 70
    35
  9
$PDSIZE
 40
0.000315
  0
ENDSEC
  0
SECTION
  2
TABLES
  0
TABLE
  2
LTYPE
 70
     9
  0
LTYPE
  2
CONTINUOUS
 70
    64
  3
Solid line
 72
    65
 73
     0
 40
0.000000
  0
LTYPE
  2
DASHED
 70
    64
  3
__ __ __ __ __ __ __ __ __ __ __ __ __ __ __
 72
    65
 73
     2
 40
0.000003
 49
0.000002
 49
-0.000001
  0
LTYPE
  2
HIDDEN
 70
    64
  3
 _ _ _ _ _ _ _ _ _ _ _ _ _ _ _ _ _ _ _ _ _ _
 72
    65
 73
     2
 40
0.000001
 49
0.000001
 49
-0.000000
  0
LTYPE
  2
CENTER
 70
    64
  3
____ _ ____ _ ____ _ ____ _ ____ _ ____ _ ____
 72
    65
 73
     4
 40
0.000008
 49
0.000005
 49
-0.000001
 49
0.000001
 49
-0.000001
  0
LTYPE
  2
PHANTOM
 70
    64
  3
_____ _ _ _____ _ _ _____ _ _ _____ _ _ ____
 72
    65
 73
     6
 40
0.000010
 49
0.000005
 49
-0.000001
 49
0.000001
 49
-0.000001
 49
0.000001
 49
-0.000001
  0
LTYPE
  2
DOT
 70
    64
  3
...............................................
 72
    65
 73
     2
 40
0.000001
 49
0.000000
 49
-0.000001
  0
LTYPE
  2
DASHDOT
 70
    64
  3
__ . __ . __ . __ . __ . __ . __ . __ . __ . __
 72
    65
 73
     4
 40
0.000004
 49
0.000002
 49
-0.000001
 49
0.000000
 49
-0.000001
  0
LTYPE
  2
BORDER
 70
    64
  3
__ __ . __ __ . __ __ . __ __ . __ __ . __ __
 72
    65
 73
     6
 40
0.000007
 49
0.000002
 49
-0.000001
 49
0.000002
 49
-0.000001
 49
0.000000
 49
-0.000001
  0
LTYPE
  2
DIVIDE
 70
    64
  3
__ . . __ . . __ . . __ . . __ . . __ . . __
 72
    65
 73
     6
 40
0.000005
 49
0.000002
 49
-0.000001
 49
0.000000
 49
-0.000001
 49
0.000000
 49
-0.000001
  0
LTYPE
  2
DOTDOT
 70
    64
  3
 . .  . .  . .  . .  . .  . . 
 72
    65
 73
     5
 40
0.000002
 49
-0.000001
 49
0.000000
 49
-0.000001
 49
0.000000
 49
-0.000001
  0
ENDTAB
  0
TABLE
  2
STYLE
 70
     2
  0
STYLE
 70
     0
  2
SN0
 40
0.000000
 41
0.000004
 50
0.000000
 71
     0
 42
0.000000
  3
SCRIPTS
  0
STYLE
 70
    68
  2
SV0
 40
0.000000
 41
0.000004
 50
0.000000
 71
     0
 42
0.000000
  3
SCRIPTS
  0
ENDTAB
  0
TABLE
  2
LAYER
 70
     3
  0
LAYER
  2
FOREGROUND
 70
    64
 62
     7
  6
CONTINUOUS
  0
LAYER
  2
BACKGROUND
 70
    65
 62
    -7
  6
CONTINUOUS
  0
LAYER
  2
LAYER_1
 70
    64
 62
     7
  6
CONTINUOUS
  0
ENDTAB
  0
ENDSEC
  0
SECTION
  2
ENTITIES
  0
POLYLINE
  8
LAYER_1
 62
    39
  6
CONTINUOUS
 66
     1
 40
0.500000
 41
0.500000
  0
VERTEX
  8
LAYER_1
 62
    39
  6
CONTINUOUS
 10
2.999969
 20
22.750000
  0
VERTEX
  8
LAYER_1
 62
    39
  6
CONTINUOUS
 10
6.619374
 20
9.226240
  0
SEQEND
  8
0
  0
POLYLINE
  8
LAYER_1
 62
    39
  6
CONTINUOUS
 66
     1
 40
0.003000
 41
0.003000
  0
VERTEX
  8
LAYER_1
 62
    39
  6
CONTINUOUS
 10
7.966220
 20
16.797969
  0
VERTEX
  8
LAYER_1
 62
    39
  6
CONTINUOUS
 10
9.767189
 20
10.068701
  0
SEQEND
  8
0
  0
POLYLINE
  8
LAYER_1
 62
    39
  6
CONTINUOUS
 66
     1
 40
0.003000
 41
0.003000
  0
VERTEX
  8
LAYER_1
 62
    39
  6
CONTINUOUS
 10
6.147783
 20
23.592461
  0
VERTEX
  8
LAYER_1
 62
    39
  6
CONTINUOUS
 10
7.485189
 20
18.595311
  0
SEQEND
  8
0
  0
POLYLINE
  8
LAYER_1
 62
    39
  6
CONTINUOUS
 66
     1
 40
0.003000
 41
0.003000
  0
VERTEX
  8
LAYER_1
 62
    39
  6
CONTINUOUS
 10
6.715972
 20
9.252094
  0
VERTEX
  8
LAYER_1
 62
    39
  6
CONTINUOUS
 10
9.960390
 20
10.120409
  0
SEQEND
  8
0
  0
POLYLINE
  8
LAYER_1
 62
    39
  6
CONTINUOUS
 66
     1
 40
0.003000
 41
0.003000
  0
VERTEX
  8
LAYER_1
 62
    39
  6
CONTINUOUS
 10
3.096567
 20
22.775854
  0
VERTEX
  8
LAYER_1
 62
    39
  6
CONTINUOUS
 10
6.340984
 20
23.644169
  0
SEQEND
  8
0
  0
TEXT
  8
LAYER_1
 62
    39
 10
7.100780
 20
19.180445
 40
0.922829
  1
14,00"
 50
278.812113
 41
1.000000
  7
SN0
 71
     0
 72
     5
 11
7.586294
 21
16.047856
  0
POLYLINE
  8
LAYER_1
 62
    39
  6
CONTINUOUS
 66
     1
 40
0.003000
 41
0.003000
  0
VERTEX
  8
LAYER_1
 62
    39
  6
CONTINUOUS
 10
-22.000000
 20
3.250000
  0
VERTEX
  8
LAYER_1
 62
    39
  6
CONTINUOUS
 10
-20.500000
 20
-1.750000
  0
VERTEX
  8
LAYER_1
 62
    39
  6
CONTINUOUS
 10
-19.500000
 20
-34.000000
  0
VERTEX
  8
LAYER_1
 62
    39
  6
CONTINUOUS
 10
11.000000
 20
-34.000000
  0
SEQEND
  8
0
  0
POLYLINE
  8
LAYER_1
 62
    39
  6
CONTINUOUS
 66
     1
 40
0.003000
 41
0.003000
  0
VERTEX
  8
LAYER_1
 62
    39
  6
CONTINUOUS
 10
11.000000
 20
-34.000000
  0
VERTEX
  8
LAYER_1
 62
    39
  6
CONTINUOUS
 10
11.000000
 20
-33.590888
  0
VERTEX
  8
LAYER_1
 62
    39
  6
CONTINUOUS
 10
11.000000
 20
-33.181734
  0
VERTEX
  8
LAYER_1
 62
    39
  6
CONTINUOUS
 10
11.000000
 20
-32.772539
  0
VERTEX
  8
LAYER_1
 62
    39
  6
CONTINUOUS
 10
11.000000
 20
-32.363303
  0
VERTEX
  8
LAYER_1
 62
    39
  6
CONTINUOUS
 10
11.000000
 20
-31.954027
  0
VERTEX
  8
LAYER_1
 62
    39
  6
CONTINUOUS
 10
11.000000
 20
-31.544710
  0
VERTEX
  8
LAYER_1
 62
    39
  6
CONTINUOUS
 10
11.000000
 20
-31.135354
  0
VERTEX
  8
LAYER_1
 62
    39
  6
CONTINUOUS
 10
11.000000
 20
-30.725958
  0
VERTEX
  8
LAYER_1
 62
    39
  6
CONTINUOUS
 10
11.000000
 20
-30.316524
  0
VERTEX
  8
LAYER_1
 62
    39
  6
CONTINUOUS
 10
11.000000
 20
-29.907051
  0
VERTEX
  8
LAYER_1
 62
    39
  6
CONTINUOUS
 10
11.000000
 20
-29.497540
  0
VERTEX
  8
LAYER_1
 62
    39
  6
CONTINUOUS
 10
11.000000
 20
-29.087991
  0
VERTEX
  8
LAYER_1
 62
    39
  6
CONTINUOUS
 10
11.000000
 20
-28.678406
  0
VERTEX
  8
LAYER_1
 62
    39
  6
CONTINUOUS
 10
11.000000
 20
-28.268783
  0
VERTEX
  8
LAYER_1
 62
    39
  6
CONTINUOUS
 10
11.000000
 20
-27.859124
  0
VERTEX
  8
LAYER_1
 62
    39
  6
CONTINUOUS
 10
11.000000
 20
-27.449429
  0
VERTEX
  8
LAYER_1
 62
    39
  6
CONTINUOUS
 10
11.000000
 20
-27.039698
  0
VERTEX
  8
LAYER_1
 62
    39
  6
CONTINUOUS
 10
11.000000
 20
-26.629932
  0
VERTEX
  8
LAYER_1
 62
    39
  6
CONTINUOUS
 10
11.000000
 20
-26.220131
  0
VERTEX
  8
LAYER_1
 62
    39
  6
CONTINUOUS
 10
11.000000
 20
-25.810296
  0
VERTEX
  8
LAYER_1
 62
    39
  6
CONTINUOUS
 10
11.000000
 20
-25.400427
  0
VERTEX
  8
LAYER_1
 62
    39
  6
CONTINUOUS
 10
11.000000
 20
-24.990525
  0
VERTEX
  8
LAYER_1
 62
    39
  6
CONTINUOUS
 10
11.000000
 20
-24.580589
  0
VERTEX
  8
LAYER_1
 62
    39
  6
CONTINUOUS
 10
11.000000
 20
-24.170621
  0
VERTEX
  8
LAYER_1
 62
    39
  6
CONTINUOUS
 10
11.000000
 20
-23.760620
  0
VERTEX
  8
LAYER_1
 62
    39
  6
CONTINUOUS
 10
11.000000
 20
-23.350588
  0
VERTEX
  8
LAYER_1
 62
    39
  6
CONTINUOUS
 10
11.000000
 20
-22.940523
  0
VERTEX
  8
LAYER_1
 62
    39
  6
CONTINUOUS
 10
11.000000
 20
-22.530428
  0
VERTEX
  8
LAYER_1
 62
    39
  6
CONTINUOUS
 10
11.000000
 20
-22.120303
  0
VERTEX
  8
LAYER_1
 62
    39
  6
CONTINUOUS
 10
11.000000
 20
-21.710146
  0
VERTEX
  8
LAYER_1
 62
    39
  6
CONTINUOUS
 10
11.000000
 20
-21.299961
  0
VERTEX
  8
LAYER_1
 62
    39
  6
CONTINUOUS
 10
11.000000
 20
-20.889745
  0
VERTEX
  8
LAYER_1
 62
    39
  6
CONTINUOUS
 10
11.000000
 20
-20.479501
  0
VERTEX
  8
LAYER_1
 62
    39
  6
CONTINUOUS
 10
11.000000
 20
-20.069228
  0
VERTEX
  8
LAYER_1
 62
    39
  6
CONTINUOUS
 10
11.000000
 20
-19.658927
  0
VERTEX
  8
LAYER_1
 62
    39
  6
CONTINUOUS
 10
11.000000
 20
-19.248598
  0
VERTEX
  8
LAYER_1
 62
    39
  6
CONTINUOUS
 10
11.000000
 20
-18.838241
  0
VERTEX
  8
LAYER_1
 62
    39
  6
CONTINUOUS
 10
11.000000
 20
-18.427858
  0
VERTEX
  8
LAYER_1
 62
    39
  6
CONTINUOUS
 10
11.000000
 20
-18.017448
  0
VERTEX
  8
LAYER_1
 62
    39
  6
CONTINUOUS
 10
11.000000
 20
-17.607012
  0
VERTEX
  8
LAYER_1
 62
    39
  6
CONTINUOUS
 10
11.000000
 20
-17.196550
  0
VERTEX
  8
LAYER_1
 62
    39
  6
CONTINUOUS
 10
11.000000
 20
-16.786063
  0
VERTEX
  8
LAYER_1
 62
    39
  6
CONTINUOUS
 10
11.000000
 20
-16.375551
  0
VERTEX
  8
LAYER_1
 62
    39
  6
CONTINUOUS
 10
11.000000
 20
-15.965015
  0
VERTEX
  8
LAYER_1
 62
    39
  6
CONTINUOUS
 10
11.000000
 20
-15.554454
  0
VERTEX
  8
LAYER_1
 62
    39
  6
CONTINUOUS
 10
11.000000
 20
-15.143870
  0
VERTEX
  8
LAYER_1
 62
    39
  6
CONTINUOUS
 10
11.000000
 20
-14.733262
  0
VERTEX
  8
LAYER_1
 62
    39
  6
CONTINUOUS
 10
11.000000
 20
-14.322632
  0
VERTEX
  8
LAYER_1
 62
    39
  6
CONTINUOUS
 10
11.000000
 20
-13.911979
  0
VERTEX
  8
LAYER_1
 62
    39
  6
CONTINUOUS
 10
11.000000
 20
-13.501304
  0
VERTEX
  8
LAYER_1
 62
    39
  6
CONTINUOUS
 10
11.000000
 20
-13.090608
  0
VERTEX
  8
LAYER_1
 62
    39
  6
CONTINUOUS
 10
11.000000
 20
-12.679890
  0
VERTEX
  8
LAYER_1
 62
    39
  6
CONTINUOUS
 10
11.000000
 20
-12.269151
  0
VERTEX
  8
LAYER_1
 62
    39
  6
CONTINUOUS
 10
11.000000
 20
-11.858392
  0
VERTEX
  8
LAYER_1
 62
    39
  6
CONTINUOUS
 10
11.000000
 20
-11.447613
  0
VERTEX
  8
LAYER_1
 62
    39
  6
CONTINUOUS
 10
11.000000
 20
-11.036815
  0
VERTEX
  8
LAYER_1
 62
    39
  6
CONTINUOUS
 10
11.000000
 20
-10.625997
  0
VERTEX
  8
LAYER_1
 62
    39
  6
CONTINUOUS
 10
11.000000
 20
-10.215161
  0
VERTEX
  8
LAYER_1
 62
    39
  6
CONTINUOUS
 10
11.000000
 20
-9.804306
  0
VERTEX
  8
LAYER_1
 62
    39
  6
CONTINUOUS
 10
11.000000
 20
-9.393433
  0
VERTEX
  8
LAYER_1
 62
    39
  6
CONTINUOUS
 10
11.000000
 20
-8.982543
  0
VERTEX
  8
LAYER_1
 62
    39
  6
CONTINUOUS
 10
11.000000
 20
-8.571635
  0
VERTEX
  8
LAYER_1
 62
    39
  6
CONTINUOUS
 10
11.000000
 20
-8.160711
  0
VERTEX
  8
LAYER_1
 62
    39
  6
CONTINUOUS
 10
11.000000
 20
-7.749771
  0
VERTEX
  8
LAYER_1
 62
    39
  6
CONTINUOUS
 10
11.000000
 20
-7.338815
  0
VERTEX
  8
LAYER_1
 62
    39
  6
CONTINUOUS
 10
11.000000
 20
-6.927843
  0
VERTEX
  8
LAYER_1
 62
    39
  6
CONTINUOUS
 10
11.000000
 20
-6.516856
  0
VERTEX
  8
LAYER_1
 62
    39
  6
CONTINUOUS
 10
11.000000
 20
-6.105855
  0
VERTEX
  8
LAYER_1
 62
    39
  6
CONTINUOUS
 10
11.000000
 20
-5.694839
  0
VERTEX
  8
LAYER_1
 62
    39
  6
CONTINUOUS
 10
11.000000
 20
-5.283810
  0
VERTEX
  8
LAYER_1
 62
    39
  6
CONTINUOUS
 10
11.000000
 20
-4.872767
  0
VERTEX
  8
LAYER_1
 62
    39
  6
CONTINUOUS
 10
11.000000
 20
-4.461711
  0
VERTEX
  8
LAYER_1
 62
    39
  6
CONTINUOUS
 10
11.000000
 20
-4.050642
  0
VERTEX
  8
LAYER_1
 62
    39
  6
CONTINUOUS
 10
11.000000
 20
-3.639562
  0
VERTEX
  8
LAYER_1
 62
    39
  6
CONTINUOUS
 10
11.000000
 20
-3.228469
  0
VERTEX
  8
LAYER_1
 62
    39
  6
CONTINUOUS
 10
11.000000
 20
-2.817365
  0
VERTEX
  8
LAYER_1
 62
    39
  6
CONTINUOUS
 10
11.000000
 20
-2.406250
  0
VERTEX
  8
LAYER_1
 62
    39
  6
CONTINUOUS
 10
11.000000
 20
-1.995125
  0
VERTEX
  8
LAYER_1
 62
    39
  6
CONTINUOUS
 10
11.000000
 20
-1.583990
  0
VERTEX
  8
LAYER_1
 62
    39
  6
CONTINUOUS
 10
11.000000
 20
-1.172845
  0
VERTEX
  8
LAYER_1
 62
    39
  6
CONTINUOUS
 10
11.000000
 20
-0.761690
  0
VERTEX
  8
LAYER_1
 62
    39
  6
CONTINUOUS
 10
11.000000
 20
-0.350527
  0
VERTEX
  8
LAYER_1
 62
    39
  6
CONTINUOUS
 10
11.000000
 20
0.060645
  0
VERTEX
  8
LAYER_1
 62
    39
  6
CONTINUOUS
 10
11.000000
 20
0.471825
  0
VERTEX
  8
LAYER_1
 62
    39
  6
CONTINUOUS
 10
11.000000
 20
0.883013
  0
VERTEX
  8
LAYER_1
 62
    39
  6
CONTINUOUS
 10
11.000000
 20
1.294208
  0
VERTEX
  8
LAYER_1
 62
    39
  6
CONTINUOUS
 10
11.000000
 20
1.705409
  0
VERTEX
  8
LAYER_1
 62
    39
  6
CONTINUOUS
 10
11.000000
 20
2.116618
  0
VERTEX
  8
LAYER_1
 62
    39
  6
CONTINUOUS
 10
11.000000
 20
2.527832
  0
VERTEX
  8
LAYER_1
 62
    39
  6
CONTINUOUS
 10
11.000000
 20
2.939051
  0
VERTEX
  8
LAYER_1
 62
    39
  6
CONTINUOUS
 10
11.000000
 20
3.350276
  0
VERTEX
  8
LAYER_1
 62
    39
  6
CONTINUOUS
 10
11.000000
 20
3.761506
  0
VERTEX
  8
LAYER_1
 62
    39
  6
CONTINUOUS
 10
11.000000
 20
4.172740
  0
VERTEX
  8
LAYER_1
 62
    39
  6
CONTINUOUS
 10
11.000000
 20
4.583979
  0
VERTEX
  8
LAYER_1
 62
    39
  6
CONTINUOUS
 10
11.000000
 20
4.995220
  0
VERTEX
  8
LAYER_1
 62
    39
  6
CONTINUOUS
 10
11.000000
 20
5.406465
  0
VERTEX
  8
LAYER_1
 62
    39
  6
CONTINUOUS
 10
11.000000
 20
5.817713
  0
VERTEX
  8
LAYER_1
 62
    39
  6
CONTINUOUS
 10
11.000000
 20
6.228963
  0
VERTEX
  8
LAYER_1
 62
    39
  6
CONTINUOUS
 10
11.000000
 20
6.640214
  0
VERTEX
  8
LAYER_1
 62
    39
  6
CONTINUOUS
 10
11.000000
 20
7.051468
  0
VERTEX
  8
LAYER_1
 62
    39
  6
CONTINUOUS
 10
11.000000
 20
7.462722
  0
VERTEX
  8
LAYER_1
 62
    39
  6
CONTINUOUS
 10
11.000000
 20
7.873977
  0
VERTEX
  8
LAYER_1
 62
    39
  6
CONTINUOUS
 10
11.000000
 20
8.285233
  0
VERTEX
  8
LAYER_1
 62
    39
  6
CONTINUOUS
 10
11.000000
 20
8.696488
  0
VERTEX
  8
LAYER_1
 62
    39
  6
CONTINUOUS
 10
11.000000
 20
9.107743
  0
VERTEX
  8
LAYER_1
 62
    39
  6
CONTINUOUS
 10
11.000000
 20
9.518996
  0
VERTEX
  8
LAYER_1
 62
    39
  6
CONTINUOUS
 10
11.000000
 20
9.930249
  0
VERTEX
  8
LAYER_1
 62
    39
  6
CONTINUOUS
 10
11.000000
 20
10.341499
  0
VERTEX
  8
LAYER_1
 62
    39
  6
CONTINUOUS
 10
11.000000
 20
10.752748
  0
VERTEX
  8
LAYER_1
 62
    39
  6
CONTINUOUS
 10
11.000000
 20
11.163994
  0
VERTEX
  8
LAYER_1
 62
    39
  6
CONTINUOUS
 10
11.000000
 20
11.575236
  0
VERTEX
  8
LAYER_1
 62
    39
  6
CONTINUOUS
 10
11.000000
 20
11.986476
  0
VERTEX
  8
LAYER_1
 62
    39
  6
CONTINUOUS
 10
11.000000
 20
12.397711
  0
VERTEX
  8
LAYER_1
 62
    39
  6
CONTINUOUS
 10
11.000000
 20
12.808943
  0
VERTEX
  8
LAYER_1
 62
    39
  6
CONTINUOUS
 10
11.000000
 20
13.220169
  0
VERTEX
  8
LAYER_1
 62
    39
  6
CONTINUOUS
 10
11.000000
 20
13.631391
  0
VERTEX
  8
LAYER_1
 62
    39
  6
CONTINUOUS
 10
11.000000
 20
14.042607
  0
VERTEX
  8
LAYER_1
 62
    39
  6
CONTINUOUS
 10
11.000000
 20
14.453817
  0
VERTEX
  8
LAYER_1
 62
    39
  6
CONTINUOUS
 10
11.000000
 20
14.865021
  0
VERTEX
  8
LAYER_1
 62
    39
  6
CONTINUOUS
 10
11.000000
 20
15.276218
  0
VERTEX
  8
LAYER_1
 62
    39
  6
CONTINUOUS
 10
11.000000
 20
15.687408
  0
VERTEX
  8
LAYER_1
 62
    39
  6
CONTINUOUS
 10
11.000000
 20
16.098591
  0
VERTEX
  8
LAYER_1
 62
    39
  6
CONTINUOUS
 10
11.000000
 20
16.509766
  0
VERTEX
  8
LAYER_1
 62
    39
  6
CONTINUOUS
 10
11.000000
 20
16.920932
  0
VERTEX
  8
LAYER_1
 62
    39
  6
CONTINUOUS
 10
11.000000
 20
17.332089
  0
VERTEX
  8
LAYER_1
 62
    39
  6
CONTINUOUS
 10
11.000000
 20
17.743238
  0
VERTEX
  8
LAYER_1
 62
    39
  6
CONTINUOUS
 10
11.000000
 20
18.154376
  0
VERTEX
  8
LAYER_1
 62
    39
  6
CONTINUOUS
 10
11.000000
 20
18.565505
  0
VERTEX
  8
LAYER_1
 62
    39
  6
CONTINUOUS
 10
11.000000
 20
18.976624
  0
VERTEX
  8
LAYER_1
 62
    39
  6
CONTINUOUS
 10
11.000000
 20
19.387731
  0
VERTEX
  8
LAYER_1
 62
    39
  6
CONTINUOUS
 10
11.000000
 20
19.798827
  0
VERTEX
  8
LAYER_1
 62
    39
  6
CONTINUOUS
 10
11.000000
 20
20.209912
  0
VERTEX
  8
LAYER_1
 62
    39
  6
CONTINUOUS
 10
11.000000
 20
20.620985
  0
VERTEX
  8
LAYER_1
 62
    39
  6
CONTINUOUS
 10
11.000000
 20
21.032045
  0
VERTEX
  8
LAYER_1
 62
    39
  6
CONTINUOUS
 10
11.000000
 20
21.443092
  0
VERTEX
  8
LAYER_1
 62
    39
  6
CONTINUOUS
 10
11.000000
 20
21.854126
  0
VERTEX
  8
LAYER_1
 62
    39
  6
CONTINUOUS
 10
11.000000
 20
22.265147
  0
VERTEX
  8
LAYER_1
 62
    39
  6
CONTINUOUS
 10
11.000000
 20
22.676153
  0
VERTEX
  8
LAYER_1
 62
    39
  6
CONTINUOUS
 10
11.000000
 20
23.087145
  0
VERTEX
  8
LAYER_1
 62
    39
  6
CONTINUOUS
 10
11.000000
 20
23.498121
  0
VERTEX
  8
LAYER_1
 62
    39
  6
CONTINUOUS
 10
11.000000
 20
23.909083
  0
VERTEX
  8
LAYER_1
 62
    39
  6
CONTINUOUS
 10
11.000000
 20
24.320029
  0
VERTEX
  8
LAYER_1
 62
    39
  6
CONTINUOUS
 10
11.000000
 20
24.730958
  0
VERTEX
  8
LAYER_1
 62
    39
  6
CONTINUOUS
 10
11.000000
 20
25.141871
  0
VERTEX
  8
LAYER_1
 62
    39
  6
CONTINUOUS
 10
11.000000
 20
25.552767
  0
VERTEX
  8
LAYER_1
 62
    39
  6
CONTINUOUS
 10
11.000000
 20
25.963646
  0
VERTEX
  8
LAYER_1
 62
    39
  6
CONTINUOUS
 10
11.000000
 20
26.374507
  0
VERTEX
  8
LAYER_1
 62
    39
  6
CONTINUOUS
 10
11.000000
 20
26.785349
  0
VERTEX
  8
LAYER_1
 62
    39
  6
CONTINUOUS
 10
11.000000
 20
27.196173
  0
VERTEX
  8
LAYER_1
 62
    39
  6
CONTINUOUS
 10
11.000000
 20
27.606978
  0
VERTEX
  8
LAYER_1
 62
    39
  6
CONTINUOUS
 10
11.000000
 20
28.017764
  0
VERTEX
  8
LAYER_1
 62
    39
  6
CONTINUOUS
 10
11.000000
 20
28.428530
  0
VERTEX
  8
LAYER_1
 62
    39
  6
CONTINUOUS
 10
11.000000
 20
28.839275
  0
VERTEX
  8
LAYER_1
 62
    39
  6
CONTINUOUS
 10
11.000000
 20
29.250000
  0
SEQEND
  8
0
  0
POLYLINE
  8
LAYER_1
 62
    39
  6
CONTINUOUS
 66
     1
 40
0.003000
 41
0.003000
  0
VERTEX
  8
LAYER_1
 62
    39
  6
CONTINUOUS
 10
-14.250000
 20
31.750000
  0
VERTEX
  8
LAYER_1
 62
    39
  6
CONTINUOUS
 10
-14.250000
 20
16.750000
  0
SEQEND
  8
0
  0
POLYLINE
  8
LAYER_1
 62
    39
  6
CONTINUOUS
 66
     1
 40
0.003000
 41
0.003000
  0
VERTEX
  8
LAYER_1
 62
    39
  6
CONTINUOUS
 10
-14.250000
 20
16.750000
  0
VERTEX
  8
LAYER_1
 62
    39
  6
CONTINUOUS
 10
-14.250000
 20
16.721456
  0
VERTEX
  8
LAYER_1
 62
    39
  6
CONTINUOUS
 10
-14.250000
 20
16.668446
  0
VERTEX
  8
LAYER_1
 62
    39
  6
CONTINUOUS
 10
-14.250000
 20
16.639902
  0
SEQEND
  8
0
  0
POLYLINE
  8
LAYER_1
 62
    39
  6
CONTINUOUS
 66
     1
 40
0.003000
 41
0.003000
  0
VERTEX
  8
LAYER_1
 62
    39
  6
CONTINUOUS
 10
-14.250000
 20
16.639902
  0
VERTEX
  8
LAYER_1
 62
    39
  6
CONTINUOUS
 10
-14.255618
 20
16.201772
  0
VERTEX
  8
LAYER_1
 62
    39
  6
CONTINUOUS
 10
-14.272373
 20
15.765684
  0
VERTEX
  8
LAYER_1
 62
    39
  6
CONTINUOUS
 10
-14.300113
 20
15.331911
  0
VERTEX
  8
LAYER_1
 62
    39
  6
CONTINUOUS
 10
-14.338686
 20
14.900726
  0
VERTEX
  8
LAYER_1
 62
    39
  6
CONTINUOUS
 10
-14.387942
 20
14.472402
  0
VERTEX
  8
LAYER_1
 62
    39
  6
CONTINUOUS
 10
-14.447729
 20
14.047212
  0
VERTEX
  8
LAYER_1
 62
    39
  6
CONTINUOUS
 10
-14.517897
 20
13.625430
  0
VERTEX
  8
LAYER_1
 62
    39
  6
CONTINUOUS
 10
-14.598293
 20
13.207328
  0
VERTEX
  8
LAYER_1
 62
    39
  6
CONTINUOUS
 10
-14.688766
 20
12.793180
  0
VERTEX
  8
LAYER_1
 62
    39
  6
CONTINUOUS
 10
-14.789167
 20
12.383259
  0
VERTEX
  8
LAYER_1
 62
    39
  6
CONTINUOUS
 10
-14.899342
 20
11.977838
  0
VERTEX
  8
LAYER_1
 62
    39
  6
CONTINUOUS
 10
-15.019141
 20
11.577191
  0
VERTEX
  8
LAYER_1
 62
    39
  6
CONTINUOUS
 10
-15.148413
 20
11.181590
  0
VERTEX
  8
LAYER_1
 62
    39
  6
CONTINUOUS
 10
-15.287007
 20
10.791308
  0
VERTEX
  8
LAYER_1
 62
    39
  6
CONTINUOUS
 10
-15.434771
 20
10.406620
  0
VERTEX
  8
LAYER_1
 62
    39
  6
CONTINUOUS
 10
-15.591553
 20
10.027797
  0
VERTEX
  8
LAYER_1
 62
    39
  6
CONTINUOUS
 10
-15.757204
 20
9.655114
  0
VERTEX
  8
LAYER_1
 62
    39
  6
CONTINUOUS
 10
-15.931572
 20
9.288843
  0
VERTEX
  8
LAYER_1
 62
    39
  6
CONTINUOUS
 10
-16.114504
 20
8.929257
  0
VERTEX
  8
LAYER_1
 62
    39
  6
CONTINUOUS
 10
-16.305851
 20
8.576630
  0
VERTEX
  8
LAYER_1
 62
    39
  6
CONTINUOUS
 10
-16.505461
 20
8.231235
  0
VERTEX
  8
LAYER_1
 62
    39
  6
CONTINUOUS
 10
-16.713183
 20
7.893345
  0
VERTEX
  8
LAYER_1
 62
    39
  6
CONTINUOUS
 10
-16.928865
 20
7.563233
  0
VERTEX
  8
LAYER_1
 62
    39
  6
CONTINUOUS
 10
-17.152357
 20
7.241172
  0
VERTEX
  8
LAYER_1
 62
    39
  6
CONTINUOUS
 10
-17.383506
 20
6.927436
  0
VERTEX
  8
LAYER_1
 62
    39
  6
CONTINUOUS
 10
-17.622163
 20
6.622297
  0
VERTEX
  8
LAYER_1
 62
    39
  6
CONTINUOUS
 10
-17.868175
 20
6.326030
  0
VERTEX
  8
LAYER_1
 62
    39
  6
CONTINUOUS
 10
-18.121391
 20
6.038906
  0
VERTEX
  8
LAYER_1
 62
    39
  6
CONTINUOUS
 10
-18.381661
 20
5.761200
  0
VERTEX
  8
LAYER_1
 62
    39
  6
CONTINUOUS
 10
-18.648832
 20
5.493184
  0
VERTEX
  8
LAYER_1
 62
    39
  6
CONTINUOUS
 10
-18.922755
 20
5.235131
  0
VERTEX
  8
LAYER_1
 62
    39
  6
CONTINUOUS
 10
-19.203277
 20
4.987315
  0
VERTEX
  8
LAYER_1
 62
    39
  6
CONTINUOUS
 10
-19.490247
 20
4.750009
  0
VERTEX
  8
LAYER_1
 62
    39
  6
CONTINUOUS
 10
-19.783514
 20
4.523486
  0
VERTEX
  8
LAYER_1
 62
    39
  6
CONTINUOUS
 10
-20.082927
 20
4.308020
  0
VERTEX
  8
LAYER_1
 62
    39
  6
CONTINUOUS
 10
-20.388335
 20
4.103882
  0
VERTEX
  8
LAYER_1
 62
    39
  6
CONTINUOUS
 10
-20.699586
 20
3.911347
  0
VERTEX
  8
LAYER_1
 62
    39
  6
CONTINUOUS
 10
-21.016529
 20
3.730688
  0
VERTEX
  8
LAYER_1
 62
    39
  6
CONTINUOUS
 10
-21.339013
 20
3.562178
  0
VERTEX
  8
LAYER_1
 62
    39
  6
CONTINUOUS
 10
-21.666887
 20
3.406090
  0
VERTEX
  8
LAYER_1
 62
    39
  6
CONTINUOUS
 10
-22.000000
 20
3.262697
  0
SEQEND
  8
0
  0
POLYLINE
  8
LAYER_1
 62
    39
  6
CONTINUOUS
 66
     1
 40
0.003000
 41
0.003000
  0
VERTEX
  8
LAYER_1
 62
    39
  6
CONTINUOUS
 10
11.000000
 20
29.250000
  0
VERTEX
  8
LAYER_1
 62
    39
  6
CONTINUOUS
 10
10.626761
 20
29.379369
  0
VERTEX
  8
LAYER_1
 62
    39
  6
CONTINUOUS
 10
10.250508
 20
29.506307
  0
VERTEX
  8
LAYER_1
 62
    39
  6
CONTINUOUS
 10
9.871322
 20
29.630802
  0
VERTEX
  8
LAYER_1
 62
    39
  6
CONTINUOUS
 10
9.489289
 20
29.752841
  0
VERTEX
  8
LAYER_1
 62
    39
  6
CONTINUOUS
 10
9.104489
 20
29.872412
  0
VERTEX
  8
LAYER_1
 62
    39
  6
CONTINUOUS
 10
8.717007
 20
29.989501
  0
VERTEX
  8
LAYER_1
 62
    39
  6
CONTINUOUS
 10
8.326925
 20
30.104097
  0
VERTEX
  8
LAYER_1
 62
    39
  6
CONTINUOUS
 10
7.934327
 20
30.216186
  0
VERTEX
  8
LAYER_1
 62
    39
  6
CONTINUOUS
 10
7.539294
 20
30.325757
  0
VERTEX
  8
LAYER_1
 62
    39
  6
CONTINUOUS
 10
7.141911
 20
30.432796
  0
VERTEX
  8
LAYER_1
 62
    39
  6
CONTINUOUS
 10
6.742260
 20
30.537291
  0
VERTEX
  8
LAYER_1
 62
    39
  6
CONTINUOUS
 10
6.340424
 20
30.639229
  0
VERTEX
  8
LAYER_1
 62
    39
  6
CONTINUOUS
 10
5.936486
 20
30.738598
  0
VERTEX
  8
LAYER_1
 62
    39
  6
CONTINUOUS
 10
5.530529
 20
30.835385
  0
VERTEX
  8
LAYER_1
 62
    39
  6
CONTINUOUS
 10
5.122636
 20
30.929578
  0
VERTEX
  8
LAYER_1
 62
    39
  6
CONTINUOUS
 10
4.712890
 20
31.021163
  0
VERTEX
  8
LAYER_1
 62
    39
  6
CONTINUOUS
 10
4.301375
 20
31.110129
  0
VERTEX
  8
LAYER_1
 62
    39
  6
CONTINUOUS
 10
3.888172
 20
31.196462
  0
VERTEX
  8
LAYER_1
 62
    39
  6
CONTINUOUS
 10
3.473365
 20
31.280151
  0
VERTEX
  8
LAYER_1
 62
    39
  6
CONTINUOUS
 10
3.057037
 20
31.361182
  0
VERTEX
  8
LAYER_1
 62
    39
  6
CONTINUOUS
 10
2.639271
 20
31.439544
  0
VERTEX
  8
LAYER_1
 62
    39
  6
CONTINUOUS
 10
2.220149
 20
31.515222
  0
VERTEX
  8
LAYER_1
 62
    39
  6
CONTINUOUS
 10
1.799756
 20
31.588206
  0
VERTEX
  8
LAYER_1
 62
    39
  6
CONTINUOUS
 10
1.378173
 20
31.658481
  0
VERTEX
  8
LAYER_1
 62
    39
  6
CONTINUOUS
 10
0.955484
 20
31.726036
  0
VERTEX
  8
LAYER_1
 62
    39
  6
CONTINUOUS
 10
0.531771
 20
31.790859
  0
VERTEX
  8
LAYER_1
 62
    39
  6
CONTINUOUS
 10
0.107119
 20
31.852935
  0
VERTEX
  8
LAYER_1
 62
    39
  6
CONTINUOUS
 10
-0.318392
 20
31.912253
  0
VERTEX
  8
LAYER_1
 62
    39
  6
CONTINUOUS
 10
-0.744676
 20
31.968801
  0
VERTEX
  8
LAYER_1
 62
    39
  6
CONTINUOUS
 10
-1.171652
 20
32.022565
  0
VERTEX
  8
LAYER_1
 62
    39
  6
CONTINUOUS
 10
-1.599236
 20
32.073533
  0
VERTEX
  8
LAYER_1
 62
    39
  6
CONTINUOUS
 10
-2.027346
 20
32.121693
  0
VERTEX
  8
LAYER_1
 62
    39
  6
CONTINUOUS
 10
-2.455898
 20
32.167031
  0
VERTEX
  8
LAYER_1
 62
    39
  6
CONTINUOUS
 10
-2.884810
 20
32.209536
  0
VERTEX
  8
LAYER_1
 62
    39
  6
CONTINUOUS
 10
-3.313998
 20
32.249194
  0
VERTEX
  8
LAYER_1
 62
    39
  6
CONTINUOUS
 10
-3.743380
 20
32.285993
  0
VERTEX
  8
LAYER_1
 62
    39
  6
CONTINUOUS
 10
-4.172873
 20
32.319921
  0
VERTEX
  8
LAYER_1
 62
    39
  6
CONTINUOUS
 10
-4.602393
 20
32.350964
  0
VERTEX
  8
LAYER_1
 62
    39
  6
CONTINUOUS
 10
-5.031858
 20
32.379111
  0
VERTEX
  8
LAYER_1
 62
    39
  6
CONTINUOUS
 10
-5.461184
 20
32.404348
  0
VERTEX
  8
LAYER_1
 62
    39
  6
CONTINUOUS
 10
-5.890290
 20
32.426664
  0
VERTEX
  8
LAYER_1
 62
    39
  6
CONTINUOUS
 10
-6.319091
 20
32.446045
  0
VERTEX
  8
LAYER_1
 62
    39
  6
CONTINUOUS
 10
-6.747505
 20
32.462479
  0
VERTEX
  8
LAYER_1
 62
    39
  6
CONTINUOUS
 10
-7.175449
 20
32.475953
  0
VERTEX
  8
LAYER_1
 62
    39
  6
CONTINUOUS
 10
-7.602839
 20
32.486455
  0
VERTEX
  8
LAYER_1
 62
    39
  6
CONTINUOUS
 10
-8.029594
 20
32.493971
  0
VERTEX
  8
LAYER_1
 62
    39
  6
CONTINUOUS
 10
-8.455629
 20
32.498491
  0
VERTEX
  8
LAYER_1
 62
    39
  6
CONTINUOUS
 10
-8.880862
 20
32.500000
  0
SEQEND
  8
0
  0
POLYLINE
  8
LAYER_1
 62
    39
  6
CONTINUOUS
 66
     1
 40
0.003000
 41
0.003000
  0
VERTEX
  8
LAYER_1
 62
    39
  6
CONTINUOUS
 10
-8.880862
 20
32.500000
  0
VERTEX
  8
LAYER_1
 62
    39
  6
CONTINUOUS
 10
-9.478737
 20
32.500000
  0
VERTEX
  8
LAYER_1
 62
    39
  6
CONTINUOUS
 10
-10.152131
 20
32.500000
  0
VERTEX
  8
LAYER_1
 62
    39
  6
CONTINUOUS
 10
-10.750000
 20
32.500000
  0
SEQEND
  8
0
  0
POLYLINE
  8
LAYER_1
 62
   150
  6
CONTINUOUS
 66
     1
 40
0.500000
 41
0.500000
  0
VERTEX
  8
LAYER_1
 62
   150
  6
CONTINUOUS
 10
-14.431409
 20
4.754276
  0
VERTEX
  8
LAYER_1
 62
   150
  6
CONTINUOUS
 10
5.998295
 20
10.591622
  0
SEQEND
  8
0
  0
POLYLINE
  8
LAYER_1
 62
    39
  6
CONTINUOUS
 66
     1
 40
0.500000
 41
0.500000
  0
VERTEX
  8
LAYER_1
 62
    39
  6
CONTINUOUS
 10
-20.518488
 20
3.018488
  0
VERTEX
  8
LAYER_1
 62
    39
  6
CONTINUOUS
 10
-19.000000
 20
-1.750000
  0
SEQEND
  8
0
  0
POLYLINE
  8
LAYER_1
 62
    39
  6
CONTINUOUS
 66
     1
 40
0.003000
 41
0.003000
  0
VERTEX
  8
LAYER_1
 62
    39
  6
CONTINUOUS
 10
-13.500000
 20
32.500000
  0
VERTEX
  8
LAYER_1
 62
    39
  6
CONTINUOUS
 10
-10.750000
 20
32.500000
  0
SEQEND
  8
0
  0
POLYLINE
  8
LAYER_1
 62
    39
  6
CONTINUOUS
 66
     1
 40
0.500000
 41
0.500000
  0
VERTEX
  8
LAYER_1
 62
    39
  6
CONTINUOUS
 10
-14.250000
 20
31.750000
  0
VERTEX
  8
LAYER_1
 62
    39
  6
CONTINUOUS
 10
10.500000
 20
28.500000
  0
SEQEND
  8
0
  0
POLYLINE
  8
LAYER_1
 62
    39
  6
CONTINUOUS
 66
     1
 40
0.500000
 41
0.500000
  0
VERTEX
  8
LAYER_1
 62
    39
  6
CONTINUOUS
 10
-14.250000
 20
22.750000
  0
VERTEX
  8
LAYER_1
 62
    39
  6
CONTINUOUS
 10
2.999969
 20
22.750000
  0
SEQEND
  8
0
  0
POLYLINE
  8
LAYER_1
 62
    39
  6
CONTINUOUS
 66
     1
 40
0.003000
 41
0.003000
  0
VERTEX
  8
LAYER_1
 62
    39
  6
CONTINUOUS
 10
-14.250000
 20
31.750000
  0
VERTEX
  8
LAYER_1
 62
    39
  6
CONTINUOUS
 10
-14.147352
 20
32.128038
  0
VERTEX
  8
LAYER_1
 62
    39
  6
CONTINUOUS
 10
-13.878037
 20
32.397353
  0
VERTEX
  8
LAYER_1
 62
    39
  6
CONTINUOUS
 10
-13.500000
 20
32.500000
  0
SEQEND
  8
0
  0
POLYLINE
  8
LAYER_1
 62
    39
  6
CONTINUOUS
 66
     1
 40
0.500000
 41
0.500000
  0
VERTEX
  8
LAYER_1
 62
    39
  6
CONTINUOUS
 10
6.219819
 20
10.684063
  0
VERTEX
  8
LAYER_1
 62
    39
  6
CONTINUOUS
 10
2.999969
 20
22.750000
  0
SEQEND
  8
0
  0
POLYLINE
  8
LAYER_1
 62
    39
  6
CONTINUOUS
 66
     1
 40
0.500000
 41
0.500000
  0
VERTEX
  8
LAYER_1
 62
    39
  6
CONTINUOUS
 10
-19.000000
 20
-1.750000
  0
VERTEX
  8
LAYER_1
 62
    39
  6
CONTINUOUS
 10
-19.000000
 20
-33.500000
  0
SEQEND
  8
0
  0
POLYLINE
  8
LAYER_1
 62
    39
  6
CONTINUOUS
 66
     1
 40
0.500000
 41
0.500000
  0
VERTEX
  8
LAYER_1
 62
    39
  6
CONTINUOUS
 10
-19.250000
 20
-33.750000
  0
VERTEX
  8
LAYER_1
 62
    39
  6
CONTINUOUS
 10
11.000000
 20
-33.750000
  0
SEQEND
  8
0
  0
POLYLINE
  8
LAYER_1
 62
    39
  6
CONTINUOUS
 66
     1
 40
0.500000
 41
0.500000
  0
VERTEX
  8
LAYER_1
 62
    39
  6
CONTINUOUS
 10
10.750000
 20
28.750000
  0
VERTEX
  8
LAYER_1
 62
    39
  6
CONTINUOUS
 10
10.750000
 20
-33.500000
  0
SEQEND
  8
0
  0
POLYLINE
  8
LAYER_1
 62
    39
  6
CONTINUOUS
 66
     1
 40
0.003000
 41
0.003000
  0
VERTEX
  8
LAYER_1
 62
    39
  6
CONTINUOUS
 10
-0.931118
 20
34.475157
  0
VERTEX
  8
LAYER_1
 62
    39
  6
CONTINUOUS
 10
11.000000
 20
34.475157
  0
SEQEND
  8
0
  0
POLYLINE
  8
LAYER_1
 62
    39
  6
CONTINUOUS
 66
     1
 40
0.003000
 41
0.003000
  0
VERTEX
  8
LAYER_1
 62
    39
  6
CONTINUOUS
 10
-14.250000
 20
34.475157
  0
VERTEX
  8
LAYER_1
 62
    39
  6
CONTINUOUS
 10
-4.622031
 20
34.475157
  0
SEQEND
  8
0
  0
POLYLINE
  8
LAYER_1
 62
    39
  6
CONTINUOUS
 66
     1
 40
0.003000
 41
0.003000
  0
VERTEX
  8
LAYER_1
 62
    39
  6
CONTINUOUS
 10
11.000000
 20
33.100000
  0
VERTEX
  8
LAYER_1
 62
    39
  6
CONTINUOUS
 10
11.000000
 20
34.675157
  0
SEQEND
  8
0
  0
POLYLINE
  8
LAYER_1
 62
    39
  6
CONTINUOUS
 66
     1
 40
0.003000
 41
0.003000
  0
VERTEX
  8
LAYER_1
 62
    39
  6
CONTINUOUS
 10
-14.250000
 20
33.100000
  0
VERTEX
  8
LAYER_1
 62
    39
  6
CONTINUOUS
 10
-14.250000
 20
34.675157
  0
SEQEND
  8
0
  0
TEXT
  8
LAYER_1
 62
    39
 10
-4.316665
 20
34.115807
 40
0.922829
  1
25,25"
 41
1.000000
  7
SN0
 71
     0
 72
     5
 11
-1.146675
 21
34.115807
  0
POLYLINE
  8
LAYER_1
 62
    39
  6
CONTINUOUS
 66
     1
 40
0.003000
 41
0.003000
  0
VERTEX
  8
LAYER_1
 62
    39
  6
CONTINUOUS
 10
15.774843
 20
-1.122035
  0
VERTEX
  8
LAYER_1
 62
    39
  6
CONTINUOUS
 10
15.774843
 20
-34.000000
  0
SEQEND
  8
0
  0
POLYLINE
  8
LAYER_1
 62
    39
  6
CONTINUOUS
 66
     1
 40
0.003000
 41
0.003000
  0
VERTEX
  8
LAYER_1
 62
    39
  6
CONTINUOUS
 10
15.774843
 20
28.750000
  0
VERTEX
  8
LAYER_1
 62
    39
  6
CONTINUOUS
 10
15.774843
 20
2.568878
  0
SEQEND
  8
0
  0
POLYLINE
  8
LAYER_1
 62
    39
  6
CONTINUOUS
 66
     1
 40
0.003000
 41
0.003000
  0
VERTEX
  8
LAYER_1
 62
    39
  6
CONTINUOUS
 10
12.100000
 20
-34.000000
  0
VERTEX
  8
LAYER_1
 62
    39
  6
CONTINUOUS
 10
15.974843
 20
-34.000000
  0
SEQEND
  8
0
  0
POLYLINE
  8
LAYER_1
 62
    39
  6
CONTINUOUS
 66
     1
 40
0.003000
 41
0.003000
  0
VERTEX
  8
LAYER_1
 62
    39
  6
CONTINUOUS
 10
12.350000
 20
28.750000
  0
VERTEX
  8
LAYER_1
 62
    39
  6
CONTINUOUS
 10
15.974843
 20
28.750000
  0
SEQEND
  8
0
  0
TEXT
  8
LAYER_1
 62
    39
 10
16.134193
 20
-0.816665
 40
0.922829
  1
62,75"
 50
90.000660
 41
1.000000
  7
SN0
 71
     0
 72
     5
 11
16.134193
 21
2.353325
  0
POLYLINE
  8
LAYER_1
 62
    39
  6
CONTINUOUS
 66
     1
 40
0.003000
 41
0.003000
  0
VERTEX
  8
LAYER_1
 62
    39
  6
CONTINUOUS
 10
-22.589555
 20
-19.103429
  0
VERTEX
  8
LAYER_1
 62
    39
  6
CONTINUOUS
 10
-22.589555
 20
-33.500000
  0
SEQEND
  8
0
  0
POLYLINE
  8
LAYER_1
 62
    39
  6
CONTINUOUS
 66
     1
 40
0.003000
 41
0.003000
  0
VERTEX
  8
LAYER_1
 62
    39
  6
CONTINUOUS
 10
-22.589555
 20
-1.750000
  0
VERTEX
  8
LAYER_1
 62
    39
  6
CONTINUOUS
 10
-22.589555
 20
-15.412516
  0
SEQEND
  8
0
  0
POLYLINE
  8
LAYER_1
 62
    39
  6
CONTINUOUS
 66
     1
 40
0.003000
 41
0.003000
  0
VERTEX
  8
LAYER_1
 62
    39
  6
CONTINUOUS
 10
-19.099992
 20
-33.500000
  0
VERTEX
  8
LAYER_1
 62
    39
  6
CONTINUOUS
 10
-22.789555
 20
-33.500000
  0
SEQEND
  8
0
  0
POLYLINE
  8
LAYER_1
 62
    39
  6
CONTINUOUS
 66
     1
 40
0.003000
 41
0.003000
  0
VERTEX
  8
LAYER_1
 62
    39
  6
CONTINUOUS
 10
-19.100000
 20
-1.750000
  0
VERTEX
  8
LAYER_1
 62
    39
  6
CONTINUOUS
 10
-22.789555
 20
-1.750000
  0
SEQEND
  8
0
  0
TEXT
  8
LAYER_1
 62
    39
 10
-22.230669
 20
-18.798063
 40
0.922829
  1
31,75"
 50
90.000660
 41
1.000000
  7
SN0
 71
     0
 72
     5
 11
-22.230669
 21
-15.628073
  0
POLYLINE
  8
LAYER_1
 62
    39
  6
CONTINUOUS
 66
     1
 40
0.003000
 41
0.003000
  0
VERTEX
  8
LAYER_1
 62
    39
  6
CONTINUOUS
 10
-3.162516
 20
-36.026386
  0
VERTEX
  8
LAYER_1
 62
    39
  6
CONTINUOUS
 10
11.000000
 20
-36.026386
  0
SEQEND
  8
0
  0
POLYLINE
  8
LAYER_1
 62
    39
  6
CONTINUOUS
 66
     1
 40
0.003000
 41
0.003000
  0
VERTEX
  8
LAYER_1
 62
    39
  6
CONTINUOUS
 10
-19.250000
 20
-36.026386
  0
VERTEX
  8
LAYER_1
 62
    39
  6
CONTINUOUS
 10
-6.853429
 20
-36.026386
  0
SEQEND
  8
0
  0
POLYLINE
  8
LAYER_1
 62
    39
  6
CONTINUOUS
 66
     1
 40
0.003000
 41
0.003000
  0
VERTEX
  8
LAYER_1
 62
    39
  6
CONTINUOUS
 10
11.000000
 20
-33.850000
  0
VERTEX
  8
LAYER_1
 62
    39
  6
CONTINUOUS
 10
11.000000
 20
-36.226386
  0
SEQEND
  8
0
  0
POLYLINE
  8
LAYER_1
 62
    39
  6
CONTINUOUS
 66
     1
 40
0.003000
 41
0.003000
  0
VERTEX
  8
LAYER_1
 62
    39
  6
CONTINUOUS
 10
-19.250000
 20
-33.850000
  0
VERTEX
  8
LAYER_1
 62
    39
  6
CONTINUOUS
 10
-19.250000
 20
-36.226386
  0
SEQEND
  8
0
  0
TEXT
  8
LAYER_1
 62
    39
 10
-6.548063
 20
-36.385736
 40
0.922829
  1
30,25"
 41
1.000000
  7
SN0
 71
     0
 72
     5
 11
-3.378073
 21
-36.385736
  0
POLYLINE
  8
LAYER_1
 62
    39
  6
CONTINUOUS
 66
     1
 40
0.003000
 41
0.003000
  0
VERTEX
  8
LAYER_1
 62
    39
  6
CONTINUOUS
 10
-19.096547
 20
2.000051
  0
VERTEX
  8
LAYER_1
 62
    39
  6
CONTINUOUS
 10
-19.521917
 20
3.335839
  0
SEQEND
  8
0
  0
POLYLINE
  8
LAYER_1
 62
    39
  6
CONTINUOUS
 66
     1
 40
0.003000
 41
0.003000
  0
VERTEX
  8
LAYER_1
 62
    39
  6
CONTINUOUS
 10
-18.003429
 20
-1.432650
  0
VERTEX
  8
LAYER_1
 62
    39
  6
CONTINUOUS
 10
-18.462047
 20
0.007551
  0
SEQEND
  8
0
  0
POLYLINE
  8
LAYER_1
 62
    39
  6
CONTINUOUS
 66
     1
 40
0.003000
 41
0.003000
  0
VERTEX
  8
LAYER_1
 62
    39
  6
CONTINUOUS
 10
-20.423205
 20
3.048831
  0
VERTEX
  8
LAYER_1
 62
    39
  6
CONTINUOUS
 10
-19.331346
 20
3.396524
  0
SEQEND
  8
0
  0
POLYLINE
  8
LAYER_1
 62
    39
  6
CONTINUOUS
 66
     1
 40
0.003000
 41
0.003000
  0
VERTEX
  8
LAYER_1
 62
    39
  6
CONTINUOUS
 10
-18.904717
 20
-1.719657
  0
VERTEX
  8
LAYER_1
 62
    39
  6
CONTINUOUS
 10
-17.812858
 20
-1.371965
  0
SEQEND
  8
0
  0
TEXT
  8
LAYER_1
 62
    39
 10
-19.519472
 20
2.054835
 40
0.922829
  1
5,00"
 50
287.345172
 41
1.000000
  7
SN0
 71
     0
 72
     5
 11
-18.758618
 21
-0.381538
  0
POLYLINE
  8
LAYER_1
 62
    39
  6
CONTINUOUS
 66
     1
 40
0.003000
 41
0.003000
  0
VERTEX
  8
LAYER_1
 62
    39
  6
CONTINUOUS
 10
-3.412547
 20
19.089417
  0
VERTEX
  8
LAYER_1
 62
    39
  6
CONTINUOUS
 10
2.999969
 20
19.089417
  0
SEQEND
  8
0
  0
POLYLINE
  8
LAYER_1
 62
    39
  6
CONTINUOUS
 66
     1
 40
0.003000
 41
0.003000
  0
VERTEX
  8
LAYER_1
 62
    39
  6
CONTINUOUS
 10
-14.250000
 20
19.089417
  0
VERTEX
  8
LAYER_1
 62
    39
  6
CONTINUOUS
 10
-7.103461
 20
19.089417
  0
SEQEND
  8
0
  0
POLYLINE
  8
LAYER_1
 62
    39
  6
CONTINUOUS
 66
     1
 40
0.003000
 41
0.003000
  0
VERTEX
  8
LAYER_1
 62
    39
  6
CONTINUOUS
 10
2.999969
 20
22.650000
  0
VERTEX
  8
LAYER_1
 62
    39
  6
CONTINUOUS
 10
2.999969
 20
18.889417
  0
SEQEND
  8
0
  0
POLYLINE
  8
LAYER_1
 62
    39
  6
CONTINUOUS
 66
     1
 40
0.003000
 41
0.003000
  0
VERTEX
  8
LAYER_1
 62
    39
  6
CONTINUOUS
 10
-14.250000
 20
22.650000
  0
VERTEX
  8
LAYER_1
 62
    39
  6
CONTINUOUS
 10
-14.250000
 20
18.889417
  0
SEQEND
  8
0
  0
TEXT
  8
LAYER_1
 62
    39
 10
-6.798094
 20
18.730067
 40
0.922829
  1
17,25"
 41
1.000000
  7
SN0
 71
     0
 72
     5
 11
-3.628104
 21
18.730067
  0
POLYLINE
  8
LAYER_1
 62
    39
  6
CONTINUOUS
 66
     1
 40
0.003000
 41
0.003000
  0
VERTEX
  8
LAYER_1
 62
    39
  6
CONTINUOUS
 10
-15.723610
 20
25.947720
  0
VERTEX
  8
LAYER_1
 62
    39
  6
CONTINUOUS
 10
-15.723610
 20
22.750000
  0
SEQEND
  8
0
  0
POLYLINE
  8
LAYER_1
 62
    39
  6
CONTINUOUS
 66
     1
 40
0.003000
 41
0.003000
  0
VERTEX
  8
LAYER_1
 62
    39
  6
CONTINUOUS
 10
-15.723610
 20
31.750000
  0
VERTEX
  8
LAYER_1
 62
    39
  6
CONTINUOUS
 10
-15.723610
 20
29.010862
  0
SEQEND
  8
0
  0
POLYLINE
  8
LAYER_1
 62
    39
  6
CONTINUOUS
 66
     1
 40
0.003000
 41
0.003000
  0
VERTEX
  8
LAYER_1
 62
    39
  6
CONTINUOUS
 10
-14.349992
 20
22.750000
  0
VERTEX
  8
LAYER_1
 62
    39
  6
CONTINUOUS
 10
-15.923610
 20
22.750000
  0
SEQEND
  8
0
  0
POLYLINE
  8
LAYER_1
 62
    39
  6
CONTINUOUS
 66
     1
 40
0.003000
 41
0.003000
  0
VERTEX
  8
LAYER_1
 62
    39
  6
CONTINUOUS
 10
-14.350000
 20
31.750000
  0
VERTEX
  8
LAYER_1
 62
    39
  6
CONTINUOUS
 10
-15.923610
 20
31.750000
  0
SEQEND
  8
0
  0
TEXT
  8
LAYER_1
 62
    39
 10
-15.364260
 20
26.253091
 40
0.922829
  1
9,00"
 50
90.000660
 41
1.000000
  7
SN0
 71
     0
 72
     5
 11
-15.364260
 21
28.805504
  0
POLYLINE
  8
LAYER_1
 62
    39
  6
CONTINUOUS
 66
     1
 40
0.003000
 41
0.003000
  0
VERTEX
  8
LAYER_1
 62
    39
  6
CONTINUOUS
 10
-3.028039
 20
10.262886
  0
VERTEX
  8
LAYER_1
 62
    39
  6
CONTINUOUS
 10
5.403843
 20
12.672110
  0
SEQEND
  8
0
  0
POLYLINE
  8
LAYER_1
 62
    39
  6
CONTINUOUS
 66
     1
 40
0.003000
 41
0.003000
  0
VERTEX
  8
LAYER_1
 62
    39
  6
CONTINUOUS
 10
-15.025862
 20
6.834764
  0
VERTEX
  8
LAYER_1
 62
    39
  6
CONTINUOUS
 10
-6.441535
 20
9.287547
  0
SEQEND
  8
0
  0
POLYLINE
  8
LAYER_1
 62
    39
  6
CONTINUOUS
 66
     1
 40
0.003000
 41
0.003000
  0
VERTEX
  8
LAYER_1
 62
    39
  6
CONTINUOUS
 10
5.970823
 20
10.687776
  0
VERTEX
  8
LAYER_1
 62
    39
  6
CONTINUOUS
 10
5.348898
 20
12.864413
  0
SEQEND
  8
0
  0
POLYLINE
  8
LAYER_1
 62
    39
  6
CONTINUOUS
 66
     1
 40
0.003000
 41
0.003000
  0
VERTEX
  8
LAYER_1
 62
    39
  6
CONTINUOUS
 10
-14.458882
 20
4.850429
  0
VERTEX
  8
LAYER_1
 62
    39
  6
CONTINUOUS
 10
-15.080807
 20
7.027067
  0
SEQEND
  8
0
  0
TEXT
  8
LAYER_1
 62
    39
 10
-6.112528
 20
8.996394
 40
0.922829
  1
21,25"
 50
15.185948
 41
1.000000
  7
SN0
 71
     0
 72
     5
 11
-3.053229
 21
9.826775
  0
POLYLINE
  8
LAYER_1
 62
    39
  6
CONTINUOUS
 66
     1
 40
0.003000
 41
0.003000
  0
VERTEX
  8
LAYER_1
 62
    39
  6
CONTINUOUS
 10
-20.518488
 20
3.018488
  0
VERTEX
  8
LAYER_1
 62
    39
  6
CONTINUOUS
 10
8.605130
 20
11.349638
  0
SEQEND
  8
0
  0
POLYLINE
  8
LAYER_1
 62
    39
  6
CONTINUOUS
 66
     1
 40
0.003000
 41
0.003000
  0
VERTEX
  8
LAYER_1
 62
    39
  6
CONTINUOUS
 10
5.957909
 20
16.493512
  0
VERTEX
  8
LAYER_1
 62
    39
  6
CONTINUOUS
 10
7.422535
 20
11.005012
  0
SEQEND
  8
0
  0
POLYLINE
  8
LAYER_1
 62
    39
  6
CONTINUOUS
 66
     1
 40
0.003000
 41
0.003000
  0
VERTEX
  8
LAYER_1
 62
    39
  6
CONTINUOUS
 10
4.202685
 20
23.070949
  0
VERTEX
  8
LAYER_1
 62
    39
  6
CONTINUOUS
 10
5.392413
 20
18.612614
  0
SEQEND
  8
0
  0
POLYLINE
  8
LAYER_1
 62
    39
  6
CONTINUOUS
 66
     1
 40
0.003000
 41
0.003000
  0
VERTEX
  8
LAYER_1
 62
    39
  6
CONTINUOUS
 10
6.316437
 20
10.709846
  0
VERTEX
  8
LAYER_1
 62
    39
  6
CONTINUOUS
 10
7.615772
 20
11.056579
  0
SEQEND
  8
0
  0
POLYLINE
  8
LAYER_1
 62
    39
  6
CONTINUOUS
 66
     1
 40
0.003000
 41
0.003000
  0
VERTEX
  8
LAYER_1
 62
    39
  6
CONTINUOUS
 10
3.096587
 20
22.775783
  0
VERTEX
  8
LAYER_1
 62
    39
  6
CONTINUOUS
 10
4.395921
 20
23.122516
  0
SEQEND
  8
0
  0
TEXT
  8
LAYER_1
 62
    39
 10
4.883909
 20
18.934618
 40
0.922829
  1
12,49"
 50
285.521040
 41
1.000000
  7
SN0
 71
     0
 72
     5
 11
5.732062
 21
15.880199
  0
POLYLINE
  8
LAYER_1
 62
    39
  6
CONTINUOUS
 66
     1
 40
0.003000
 41
0.003000
  0
VERTEX
  8
LAYER_1
 62
    39
  6
CONTINUOUS
 10
-20.518488
 20
3.018488
  0
VERTEX
  8
LAYER_1
 62
    39
  6
CONTINUOUS
 10
-14.431409
 20
4.754276
  0
SEQEND
  8
0
  0
POLYLINE
  8
LAYER_1
 62
    39
  6
CONTINUOUS
 66
     1
 40
0.003000
 41
0.003000
  0
VERTEX
  8
LAYER_1
 62
    39
  6
CONTINUOUS
 10
-17.204205
 20
4.803512
  0
VERTEX
  8
LAYER_1
 62
    39
  6
CONTINUOUS
 10
-14.652909
 20
5.531035
  0
SEQEND
  8
0
  0
POLYLINE
  8
LAYER_1
 62
    39
  6
CONTINUOUS
 66
     1
 40
0.003000
 41
0.003000
  0
VERTEX
  8
LAYER_1
 62
    39
  6
CONTINUOUS
 10
-20.739988
 20
3.795248
  0
VERTEX
  8
LAYER_1
 62
    39
  6
CONTINUOUS
 10
-18.339583
 20
4.479744
  0
SEQEND
  8
0
  0
POLYLINE
  8
LAYER_1
 62
    39
  6
CONTINUOUS
 66
     1
 40
0.003000
 41
0.003000
  0
VERTEX
  8
LAYER_1
 62
    39
  6
CONTINUOUS
 10
-14.458831
 20
4.850441
  0
VERTEX
  8
LAYER_1
 62
    39
  6
CONTINUOUS
 10
-14.707756
 20
5.723370
  0
SEQEND
  8
0
  0
POLYLINE
  8
LAYER_1
 62
    39
  6
CONTINUOUS
 66
     1
 40
0.003000
 41
0.003000
  0
VERTEX
  8
LAYER_1
 62
    39
  6
CONTINUOUS
 10
-20.545909
 20
3.114654
  0
VERTEX
  8
LAYER_1
 62
    39
  6
CONTINUOUS
 10
-20.794835
 20
3.987583
  0
SEQEND
  8
0
  0
TEXT
  8
LAYER_1
 62
    39
 10
-18.100146
 20
4.428878
 40
0.274885
  1
6,33"
 50
15.853500
 41
1.000000
  7
SN0
 71
     0
 72
     5
 11
-17.361830
 21
4.638543
  0
POLYLINE
  8
LAYER_1
 62
    39
  6
CONTINUOUS
 66
     1
 40
0.003000
 41
0.003000
  0
VERTEX
  8
LAYER_1
 62
    39
  6
CONTINUOUS
 10
6.685453
 20
8.985138
  0
VERTEX
  8
LAYER_1
 62
    39
  6
CONTINUOUS
 10
7.384756
 20
6.433650
  0
SEQEND
  8
0
  0
POLYLINE
  8
LAYER_1
 62
    39
  6
CONTINUOUS
 66
     1
 40
0.003000
 41
0.003000
  0
VERTEX
  8
LAYER_1
 62
    39
  6
CONTINUOUS
 10
8.845925
 20
11.416827
  0
VERTEX
  8
LAYER_1
 62
    39
  6
CONTINUOUS
 10
10.464827
 20
11.868547
  0
SEQEND
  8
0
  0
POLYLINE
  8
LAYER_1
 62
    39
  6
CONTINUOUS
 66
     1
 40
0.003000
 41
0.003000
  0
VERTEX
  8
LAYER_1
 62
    39
  6
CONTINUOUS
 10
6.773138
 20
6.563898
  0
VERTEX
  8
LAYER_1
 62
    39
  6
CONTINUOUS
 10
7.206883
 20
6.645524
  0
VERTEX
  8
LAYER_1
 62
    39
  6
CONTINUOUS
 10
7.622405
 20
6.770050
  0
VERTEX
  8
LAYER_1
 62
    39
  6
CONTINUOUS
 10
8.017479
 20
6.934930
  0
VERTEX
  8
LAYER_1
 62
    39
  6
CONTINUOUS
 10
8.389877
 20
7.137619
  0
VERTEX
  8
LAYER_1
 62
    39
  6
CONTINUOUS
 10
8.737375
 20
7.375572
  0
VERTEX
  8
LAYER_1
 62
    39
  6
CONTINUOUS
 10
9.057745
 20
7.646244
  0
VERTEX
  8
LAYER_1
 62
    39
  6
CONTINUOUS
 10
9.348761
 20
7.947089
  0
VERTEX
  8
LAYER_1
 62
    39
  6
CONTINUOUS
 10
9.608198
 20
8.275562
  0
VERTEX
  8
LAYER_1
 62
    39
  6
CONTINUOUS
 10
9.833830
 20
8.629119
  0
VERTEX
  8
LAYER_1
 62
    39
  6
CONTINUOUS
 10
10.023429
 20
9.005213
  0
VERTEX
  8
LAYER_1
 62
    39
  6
CONTINUOUS
 10
10.174770
 20
9.401299
  0
VERTEX
  8
LAYER_1
 62
    39
  6
CONTINUOUS
 10
10.285627
 20
9.814833
  0
VERTEX
  8
LAYER_1
 62
    39
  6
CONTINUOUS
 10
10.353774
 20
10.243270
  0
VERTEX
  8
LAYER_1
 62
    39
  6
CONTINUOUS
 10
10.376984
 20
10.684063
  0
SEQEND
  8
0
  0
POLYLINE
  8
LAYER_1
 62
    39
  6
CONTINUOUS
 66
     1
 40
0.003000
 41
0.003000
  0
VERTEX
  8
LAYER_1
 62
    39
  6
CONTINUOUS
 10
10.376984
 20
10.684063
  0
VERTEX
  8
LAYER_1
 62
    39
  6
CONTINUOUS
 10
10.359863
 20
11.060795
  0
VERTEX
  8
LAYER_1
 62
    39
  6
CONTINUOUS
 10
10.308746
 20
11.434201
  0
VERTEX
  8
LAYER_1
 62
    39
  6
CONTINUOUS
 10
10.224000
 20
11.801508
  0
SEQEND
  8
0
  0
POLYLINE
  8
LAYER_1
 62
    39
  6
CONTINUOUS
 66
     1
 40
0.003000
 41
0.003000
  0
VERTEX
  8
LAYER_1
 62
    39
  6
CONTINUOUS
 10
6.219819
 20
10.684063
  0
VERTEX
  8
LAYER_1
 62
    39
  6
CONTINUOUS
 10
6.619374
 20
9.226240
  0
SEQEND
  8
0
  0
POLYLINE
  8
LAYER_1
 62
    39
  6
CONTINUOUS
 66
     1
 40
0.003000
 41
0.003000
  0
VERTEX
  8
LAYER_1
 62
    39
  6
CONTINUOUS
 10
6.219819
 20
10.684063
  0
VERTEX
  8
LAYER_1
 62
    39
  6
CONTINUOUS
 10
8.605130
 20
11.349638
  0
SEQEND
  8
0
  0
TEXT
  8
LAYER_1
 62
    39
 10
4.824098
 20
6.476941
 40
0.274885
  1
90 degrees
 41
1.000000
  7
SN0
 71
     0
 72
     5
 11
6.494769
 21
6.476941
  0
ENDSEC
  0
EOF
